ISO-10303-21;
HEADER;
/* Generated by software containing ST-Developer
 * from STEP Tools, Inc. (www.steptools.com) 
 */
/* OPTION: using custom schema-name function */

FILE_DESCRIPTION(
/* description */ (''),
/* implementation_level */ '2;1');

FILE_NAME(
/* name */ '2_2_1',
/* time_stamp */ '2020-07-01T16:26:22+01:00',
/* author */ (''),
/* organization */ (''),
/* preprocessor_version */ 'ST-DEVELOPER v16.5',
/* originating_system */ '',
/* authorisation */ '');

FILE_SCHEMA (('CONFIG_CONTROL_DESIGN'));
ENDSEC;

DATA;
#10=SHAPE_REPRESENTATION_RELATIONSHIP('','',#180,#12);
#11=MANIFOLD_SOLID_BREP('brep_1',#13);
#12=ADVANCED_BREP_SHAPE_REPRESENTATION('brep_rep_0',(#11,#188),#179);
#13=CLOSED_SHELL('',(#14,#15,#16,#17,#18,#19));
#14=ADVANCED_FACE('',(#20),#88,.T.);
#15=ADVANCED_FACE('',(#21),#89,.T.);
#16=ADVANCED_FACE('',(#22),#90,.T.);
#17=ADVANCED_FACE('',(#23),#91,.T.);
#18=ADVANCED_FACE('',(#24),#92,.T.);
#19=ADVANCED_FACE('',(#25),#93,.T.);
#20=FACE_OUTER_BOUND('',#26,.T.);
#21=FACE_OUTER_BOUND('',#27,.T.);
#22=FACE_OUTER_BOUND('',#28,.T.);
#23=FACE_OUTER_BOUND('',#29,.T.);
#24=FACE_OUTER_BOUND('',#30,.T.);
#25=FACE_OUTER_BOUND('',#31,.T.);
#26=EDGE_LOOP('',(#32,#33,#34,#35));
#27=EDGE_LOOP('',(#36,#37,#38,#39));
#28=EDGE_LOOP('',(#40,#41,#42,#43));
#29=EDGE_LOOP('',(#44,#45,#46,#47));
#30=EDGE_LOOP('',(#48,#49,#50,#51));
#31=EDGE_LOOP('',(#52,#53,#54,#55));
#32=ORIENTED_EDGE('',*,*,#56,.T.);
#33=ORIENTED_EDGE('',*,*,#57,.T.);
#34=ORIENTED_EDGE('',*,*,#58,.T.);
#35=ORIENTED_EDGE('',*,*,#59,.T.);
#36=ORIENTED_EDGE('',*,*,#60,.T.);
#37=ORIENTED_EDGE('',*,*,#61,.T.);
#38=ORIENTED_EDGE('',*,*,#62,.T.);
#39=ORIENTED_EDGE('',*,*,#57,.F.);
#40=ORIENTED_EDGE('',*,*,#63,.T.);
#41=ORIENTED_EDGE('',*,*,#64,.T.);
#42=ORIENTED_EDGE('',*,*,#65,.T.);
#43=ORIENTED_EDGE('',*,*,#61,.F.);
#44=ORIENTED_EDGE('',*,*,#66,.T.);
#45=ORIENTED_EDGE('',*,*,#59,.F.);
#46=ORIENTED_EDGE('',*,*,#67,.T.);
#47=ORIENTED_EDGE('',*,*,#64,.F.);
#48=ORIENTED_EDGE('',*,*,#66,.F.);
#49=ORIENTED_EDGE('',*,*,#63,.F.);
#50=ORIENTED_EDGE('',*,*,#60,.F.);
#51=ORIENTED_EDGE('',*,*,#56,.F.);
#52=ORIENTED_EDGE('',*,*,#58,.F.);
#53=ORIENTED_EDGE('',*,*,#62,.F.);
#54=ORIENTED_EDGE('',*,*,#65,.F.);
#55=ORIENTED_EDGE('',*,*,#67,.F.);
#56=EDGE_CURVE('',#80,#81,#68,.T.);
#57=EDGE_CURVE('',#81,#82,#69,.T.);
#58=EDGE_CURVE('',#82,#83,#70,.T.);
#59=EDGE_CURVE('',#83,#80,#71,.T.);
#60=EDGE_CURVE('',#81,#84,#72,.T.);
#61=EDGE_CURVE('',#84,#85,#73,.T.);
#62=EDGE_CURVE('',#85,#82,#74,.T.);
#63=EDGE_CURVE('',#84,#86,#75,.T.);
#64=EDGE_CURVE('',#86,#87,#76,.T.);
#65=EDGE_CURVE('',#87,#85,#77,.T.);
#66=EDGE_CURVE('',#86,#80,#78,.T.);
#67=EDGE_CURVE('',#83,#87,#79,.T.);
#68=B_SPLINE_CURVE_WITH_KNOTS('',1,(#214,#215),.UNSPECIFIED.,.F.,.F.,(2,
2),(0.,2.),.UNSPECIFIED.);
#69=B_SPLINE_CURVE_WITH_KNOTS('',1,(#216,#217),.UNSPECIFIED.,.F.,.F.,(2,
2),(0.,1.),.UNSPECIFIED.);
#70=B_SPLINE_CURVE_WITH_KNOTS('',1,(#218,#219),.UNSPECIFIED.,.F.,.F.,(2,
2),(0.,2.),.UNSPECIFIED.);
#71=B_SPLINE_CURVE_WITH_KNOTS('',1,(#220,#221),.UNSPECIFIED.,.F.,.F.,(2,
2),(0.,1.),.UNSPECIFIED.);
#72=B_SPLINE_CURVE_WITH_KNOTS('',1,(#222,#223),.UNSPECIFIED.,.F.,.F.,(2,
2),(0.,2.),.UNSPECIFIED.);
#73=B_SPLINE_CURVE_WITH_KNOTS('',1,(#224,#225),.UNSPECIFIED.,.F.,.F.,(2,
2),(0.,1.),.UNSPECIFIED.);
#74=B_SPLINE_CURVE_WITH_KNOTS('',1,(#226,#227),.UNSPECIFIED.,.F.,.F.,(2,
2),(0.,2.),.UNSPECIFIED.);
#75=B_SPLINE_CURVE_WITH_KNOTS('',1,(#228,#229),.UNSPECIFIED.,.F.,.F.,(2,
2),(0.,2.),.UNSPECIFIED.);
#76=B_SPLINE_CURVE_WITH_KNOTS('',1,(#230,#231),.UNSPECIFIED.,.F.,.F.,(2,
2),(0.,1.),.UNSPECIFIED.);
#77=B_SPLINE_CURVE_WITH_KNOTS('',1,(#232,#233),.UNSPECIFIED.,.F.,.F.,(2,
2),(0.,2.),.UNSPECIFIED.);
#78=B_SPLINE_CURVE_WITH_KNOTS('',1,(#234,#235),.UNSPECIFIED.,.F.,.F.,(2,
2),(0.,2.),.UNSPECIFIED.);
#79=B_SPLINE_CURVE_WITH_KNOTS('',1,(#236,#237),.UNSPECIFIED.,.F.,.F.,(2,
2),(0.,2.),.UNSPECIFIED.);
#80=VERTEX_POINT('',#206);
#81=VERTEX_POINT('',#207);
#82=VERTEX_POINT('',#208);
#83=VERTEX_POINT('',#209);
#84=VERTEX_POINT('',#210);
#85=VERTEX_POINT('',#211);
#86=VERTEX_POINT('',#212);
#87=VERTEX_POINT('',#213);
#88=PLANE('',#182);
#89=PLANE('',#183);
#90=PLANE('',#184);
#91=PLANE('',#185);
#92=PLANE('',#186);
#93=PLANE('',#187);
#94=SHAPE_DEFINITION_REPRESENTATION(#95,#180);
#95=PRODUCT_DEFINITION_SHAPE('Document','',#97);
#96=PRODUCT_DEFINITION_CONTEXT('3D Mechanical Parts',#169,'design');
#97=PRODUCT_DEFINITION('A','First version',#139,#96);
#98=DATE_TIME_ROLE('classification_date');
#99=DATE_TIME_ROLE('creation_date');
#100=APPLIED_DATE_AND_TIME_ASSIGNMENT(#124,#98,(#103));
#101=APPLIED_DATE_AND_TIME_ASSIGNMENT(#126,#99,(#97));
#102=SECURITY_CLASSIFICATION_LEVEL('unclassified');
#103=SECURITY_CLASSIFICATION('A','Security for version',#102);
#104=APPLIED_SECURITY_CLASSIFICATION_ASSIGNMENT(#103,(#139));
#105=APPROVAL_ROLE('Version approval');
#106=APPROVAL_ROLE('Version Security approval');
#107=APPROVAL_ROLE('Definition approval');
#108=APPROVAL_PERSON_ORGANIZATION(#157,#133,#105);
#109=APPROVAL_PERSON_ORGANIZATION(#158,#134,#106);
#110=APPROVAL_PERSON_ORGANIZATION(#161,#135,#107);
#111=COORDINATED_UNIVERSAL_TIME_OFFSET(5,0,.BEHIND.);
#112=LOCAL_TIME(0,0,0.,#111);
#113=LOCAL_TIME(0,0,0.,#111);
#114=LOCAL_TIME(0,0,0.,#111);
#115=LOCAL_TIME(0,0,0.,#111);
#116=LOCAL_TIME(0,0,0.,#111);
#117=CALENDAR_DATE(1999,1,1);
#118=CALENDAR_DATE(1999,1,1);
#119=CALENDAR_DATE(1999,1,1);
#120=CALENDAR_DATE(1999,1,1);
#121=CALENDAR_DATE(1999,1,1);
#122=DATE_AND_TIME(#117,#112);
#123=DATE_AND_TIME(#118,#113);
#124=DATE_AND_TIME(#119,#114);
#125=DATE_AND_TIME(#120,#115);
#126=DATE_AND_TIME(#121,#116);
#127=APPROVAL_DATE_TIME(#122,#133);
#128=APPROVAL_DATE_TIME(#123,#134);
#129=APPROVAL_DATE_TIME(#125,#135);
#130=APPROVAL_STATUS('not_yet_approved');
#131=APPROVAL_STATUS('not_yet_approved');
#132=APPROVAL_STATUS('approved');
#133=APPROVAL(#130,'Version approval');
#134=APPROVAL(#131,'Version Security approval');
#135=APPROVAL(#132,'Definition approval');
#136=APPLIED_APPROVAL_ASSIGNMENT(#133,(#139));
#137=APPLIED_APPROVAL_ASSIGNMENT(#134,(#103));
#138=APPLIED_APPROVAL_ASSIGNMENT(#135,(#97));
#139=PRODUCT_DEFINITION_FORMATION_WITH_SPECIFIED_SOURCE('A',
'First version',#171,.MADE.);
#140=PERSON_AND_ORGANIZATION_ROLE('design_owner');
#141=PERSON_AND_ORGANIZATION_ROLE('creator');
#142=PERSON_AND_ORGANIZATION_ROLE('design_supplier');
#143=PERSON_AND_ORGANIZATION_ROLE('classification_officer');
#144=PERSON_AND_ORGANIZATION_ROLE('creator');
#145=ORGANIZATION('STI','lab','lab');
#146=ORGANIZATION('STI','unknown','unknown');
#147=ORGANIZATION('STI','unknown','unknown');
#148=ORGANIZATION('STI','unknown','unknown');
#149=ORGANIZATION('STI','unknown','unknown');
#150=ORGANIZATION('STI','unknown','unknown');
#151=ORGANIZATION('STI','unknown','unknown');
#152=PERSON('1','Box','vc60',$,$,$);
#153=PERSON('2','last','first',$,$,$);
#154=PERSON('3','President','Mr.',$,$,$);
#155=PERSON_AND_ORGANIZATION(#152,#145);
#156=PERSON_AND_ORGANIZATION(#153,#146);
#157=PERSON_AND_ORGANIZATION(#154,#147);
#158=PERSON_AND_ORGANIZATION(#154,#148);
#159=PERSON_AND_ORGANIZATION(#154,#149);
#160=PERSON_AND_ORGANIZATION(#153,#150);
#161=PERSON_AND_ORGANIZATION(#154,#151);
#162=APPLIED_PERSON_AND_ORGANIZATION_ASSIGNMENT(#155,#140,(#171));
#163=APPLIED_PERSON_AND_ORGANIZATION_ASSIGNMENT(#156,#141,(#139));
#164=APPLIED_PERSON_AND_ORGANIZATION_ASSIGNMENT(#156,#142,(#139));
#165=APPLIED_PERSON_AND_ORGANIZATION_ASSIGNMENT(#159,#143,(#103));
#166=APPLIED_PERSON_AND_ORGANIZATION_ASSIGNMENT(#160,#144,(#97));
#167=PRODUCT_RELATED_PRODUCT_CATEGORY('detail','detail',(#171));
#168=APPLICATION_PROTOCOL_DEFINITION('International Standard',
'config_control_design',1994,#169);
#169=APPLICATION_CONTEXT(
'configuration controlled 3d designs of mechanical parts and assemblie
s');
#170=PRODUCT_CONTEXT('3D Mechanical Parts',#169,'mechanical');
#171=PRODUCT('Document','Document','Rhino converted to STEP',(#170));
#172=(
LENGTH_UNIT()
NAMED_UNIT(*)
SI_UNIT(.MILLI.,.METRE.)
);
#173=(
NAMED_UNIT(*)
PLANE_ANGLE_UNIT()
SI_UNIT($,.RADIAN.)
);
#174=DIMENSIONAL_EXPONENTS(0.,0.,0.,0.,0.,0.,0.);
#175=PLANE_ANGLE_MEASURE_WITH_UNIT(PLANE_ANGLE_MEASURE(0.01745329252),#173);
#176=(
CONVERSION_BASED_UNIT('DEGREES',#175)
NAMED_UNIT(#174)
PLANE_ANGLE_UNIT()
);
#177=(
NAMED_UNIT(*)
SI_UNIT($,.STERADIAN.)
SOLID_ANGLE_UNIT()
);
#178=UNCERTAINTY_MEASURE_WITH_UNIT(LENGTH_MEASURE(0.01),#172,
'DISTANCE_ACCURACY_VALUE',
'Maximum model space distance between geometric entities at asserted c
onnectivities');
#179=(
GEOMETRIC_REPRESENTATION_CONTEXT(3)
GLOBAL_UNCERTAINTY_ASSIGNED_CONTEXT((#178))
GLOBAL_UNIT_ASSIGNED_CONTEXT((#177,#176,#172))
REPRESENTATION_CONTEXT('ID1','3D')
);
#180=SHAPE_REPRESENTATION('Document',(#181,#188),#179);
#181=AXIS2_PLACEMENT_3D('',#199,#189,#190);
#182=AXIS2_PLACEMENT_3D('',#200,#191,$);
#183=AXIS2_PLACEMENT_3D('',#201,#192,$);
#184=AXIS2_PLACEMENT_3D('',#202,#193,$);
#185=AXIS2_PLACEMENT_3D('',#203,#194,$);
#186=AXIS2_PLACEMENT_3D('',#204,#195,$);
#187=AXIS2_PLACEMENT_3D('',#205,#196,$);
#188=AXIS2_PLACEMENT_3D('',#238,#197,#198);
#189=DIRECTION('',(0.,0.,1.));
#190=DIRECTION('',(1.,0.,0.));
#191=DIRECTION('',(0.,-1.,0.));
#192=DIRECTION('',(1.,0.,0.));
#193=DIRECTION('',(0.,1.,0.));
#194=DIRECTION('',(-1.,0.,0.));
#195=DIRECTION('',(0.,0.,-1.));
#196=DIRECTION('',(0.,0.,1.));
#197=DIRECTION('',(0.,0.,1.));
#198=DIRECTION('',(1.,0.,0.));
#199=CARTESIAN_POINT('',(0.,0.,0.));
#200=CARTESIAN_POINT('',(-0.212,0.,1.112));
#201=CARTESIAN_POINT('',(2.,-0.212,-0.112));
#202=CARTESIAN_POINT('',(-0.212,2.,-0.112));
#203=CARTESIAN_POINT('',(0.,2.212,-0.112));
#204=CARTESIAN_POINT('',(2.212,-0.212,0.));
#205=CARTESIAN_POINT('',(-0.212,-0.212,1.));
#206=CARTESIAN_POINT('',(0.,0.,0.));
#207=CARTESIAN_POINT('',(2.,0.,0.));
#208=CARTESIAN_POINT('',(2.,0.,1.));
#209=CARTESIAN_POINT('',(0.,0.,1.));
#210=CARTESIAN_POINT('',(2.,2.,0.));
#211=CARTESIAN_POINT('',(2.,2.,1.));
#212=CARTESIAN_POINT('',(0.,2.,0.));
#213=CARTESIAN_POINT('',(0.,2.,1.));
#214=CARTESIAN_POINT('',(0.,0.,0.));
#215=CARTESIAN_POINT('',(2.,0.,0.));
#216=CARTESIAN_POINT('',(2.,0.,0.));
#217=CARTESIAN_POINT('',(2.,0.,1.));
#218=CARTESIAN_POINT('',(2.,0.,1.));
#219=CARTESIAN_POINT('',(0.,0.,1.));
#220=CARTESIAN_POINT('',(0.,0.,1.));
#221=CARTESIAN_POINT('',(0.,0.,0.));
#222=CARTESIAN_POINT('',(2.,0.,0.));
#223=CARTESIAN_POINT('',(2.,2.,0.));
#224=CARTESIAN_POINT('',(2.,2.,0.));
#225=CARTESIAN_POINT('',(2.,2.,1.));
#226=CARTESIAN_POINT('',(2.,2.,1.));
#227=CARTESIAN_POINT('',(2.,0.,1.));
#228=CARTESIAN_POINT('',(2.,2.,0.));
#229=CARTESIAN_POINT('',(0.,2.,0.));
#230=CARTESIAN_POINT('',(0.,2.,0.));
#231=CARTESIAN_POINT('',(0.,2.,1.));
#232=CARTESIAN_POINT('',(0.,2.,1.));
#233=CARTESIAN_POINT('',(2.,2.,1.));
#234=CARTESIAN_POINT('',(0.,2.,0.));
#235=CARTESIAN_POINT('',(0.,0.,0.));
#236=CARTESIAN_POINT('',(0.,0.,1.));
#237=CARTESIAN_POINT('',(0.,2.,1.));
#238=CARTESIAN_POINT('',(0.,0.,0.));
ENDSEC;
END-ISO-10303-21;
